ISO-10303-21;
HEADER;
FILE_DESCRIPTION (( 'STEP AP203' ),
    '1' );
FILE_NAME ('QB-CTZQWP-25.4-1550-M.STEP',
    '2020-12-24T01:51:02',
    ( '' ),
    ( '' ),
    'SwSTEP 2.0',
    'SolidWorks 2020',
    '' );
FILE_SCHEMA (( 'CONFIG_CONTROL_DESIGN' ));
ENDSEC;

DATA;
#1 = VERTEX_POINT ( 'NONE', #164 ) ;
#2 = PRODUCT ( 'QB-CTZQWP-25.4-1550-M', 'QB-CTZQWP-25.4-1550-M', '', ( #85 ) ) ;
#3 = CC_DESIGN_PERSON_AND_ORGANIZATION_ASSIGNMENT ( #25, #170, ( #97 ) ) ;
#4 = APPROVAL_DATE_TIME ( #67, #114 ) ;
#5 = CARTESIAN_POINT ( 'NONE',  ( 3.000000000000000000, 0.000000000000000000, 0.000000000000000000 ) ) ;
#6 = DATE_TIME_ROLE ( 'creation_date' ) ;
#7 = SECURITY_CLASSIFICATION_LEVEL ( 'unclassified' ) ;
#8 = PERSON_AND_ORGANIZATION_ROLE ( 'creator' ) ;
#9 = APPROVAL_STATUS ( 'not_yet_approved' ) ;
#10 = VECTOR ( 'NONE', #172, 1000.000000000000000 ) ;
#11 = DIRECTION ( 'NONE',  ( 0.000000000000000000, 0.000000000000000000, -1.000000000000000000 ) ) ;
#12 = FACE_OUTER_BOUND ( 'NONE', #46, .T. ) ;
#13 = COORDINATED_UNIVERSAL_TIME_OFFSET ( 8, 0, .AHEAD. ) ;
#14 = CARTESIAN_POINT ( 'NONE',  ( -1.614212418857619014, 0.000000000000000000, 0.000000000000000000 ) ) ;
#15 = SECURITY_CLASSIFICATION ( '', '', #7 ) ;
#16 = DIRECTION ( 'NONE',  ( -1.000000000000000000, -0.000000000000000000, -0.000000000000000000 ) ) ;
#17 = LOCAL_TIME ( 9, 51, 2.000000000000000000, #143 ) ;
#18 = AXIS2_PLACEMENT_3D ( 'NONE', #148, #20, #69 ) ;
#19 = CARTESIAN_POINT ( 'NONE',  ( 3.000000000000000000, 1.836970198721029589E-15, -15.00000000000000000 ) ) ;
#20 = DIRECTION ( 'NONE',  ( -1.000000000000000000, 0.000000000000000000, -0.000000000000000000 ) ) ;
#21 = AXIS2_PLACEMENT_3D ( 'NONE', #30, #68, #11 ) ;
#22 = LOCAL_TIME ( 9, 51, 2.000000000000000000, #111 ) ;
#23 = ORIENTED_EDGE ( 'NONE', *, *, #53, .T. ) ;
#24 =( NAMED_UNIT ( * ) SI_UNIT ( $, .STERADIAN. ) SOLID_ANGLE_UNIT ( ) );
#25 = PERSON_AND_ORGANIZATION ( #61, #50 ) ;
#26 = LINE ( 'NONE', #107, #165 ) ;
#27 = SHAPE_DEFINITION_REPRESENTATION ( #153, #147 ) ;
#28 = APPROVAL ( #9, 'UNSPECIFIED' ) ;
#29 = APPLICATION_CONTEXT ( 'configuration controlled 3d designs of mechanical parts and assemblies' ) ;
#30 = CARTESIAN_POINT ( 'NONE',  ( -3.000000000000000888, 12.69999999999999929, 0.000000000000000000 ) ) ;
#31 = LINE ( 'NONE', #158, #10 ) ;
#32 = ORIENTED_EDGE ( 'NONE', *, *, #33, .T. ) ;
#33 = EDGE_CURVE ( 'NONE', #1, #89, #134, .T. ) ;
#34 = ORIENTED_EDGE ( 'NONE', *, *, #33, .F. ) ;
#35 = CARTESIAN_POINT ( 'NONE',  ( -3.000000000000000000, 0.000000000000000000, 0.000000000000000000 ) ) ;
#36 = APPROVAL_STATUS ( 'not_yet_approved' ) ;
#37 = APPLICATION_CONTEXT ( 'configuration controlled 3d designs of mechanical parts and assemblies' ) ;
#38 = CARTESIAN_POINT ( 'NONE',  ( 3.000000000000000000, 0.000000000000000000, 15.00000000000000000 ) ) ;
#39 = PERSON_AND_ORGANIZATION ( #61, #50 ) ;
#40 = CC_DESIGN_DATE_AND_TIME_ASSIGNMENT ( #108, #6, ( #144 ) ) ;
#41 = MANIFOLD_SOLID_BREP ( 'Ðý×', #81 ) ;
#42 = PLANE ( 'NONE',  #21 ) ;
#43 = FACE_OUTER_BOUND ( 'NONE', #122, .T. ) ;
#44 = CARTESIAN_POINT ( 'NONE',  ( 0.000000000000000000, 0.000000000000000000, 0.000000000000000000 ) ) ;
#45 = APPROVAL_PERSON_ORGANIZATION ( #110, #114, #154 ) ;
#46 = EDGE_LOOP ( 'NONE', ( #32, #72 ) ) ;
#47 = AXIS2_PLACEMENT_3D ( 'NONE', #109, #142, #156 ) ;
#48 = CALENDAR_DATE ( 2020, 24, 12 ) ;
#49 = PERSON_AND_ORGANIZATION_ROLE ( 'design_owner' ) ;
#50 = ORGANIZATION ( 'UNSPECIFIED', 'UNSPECIFIED', '' ) ;
#51 = CIRCLE ( 'NONE', #47, 15.00000000000000000 ) ;
#52 = APPROVAL_ROLE ( '' ) ;
#53 = EDGE_CURVE ( 'NONE', #138, #90, #94, .T. ) ;
#54 = DIRECTION ( 'NONE',  ( 0.000000000000000000, 0.000000000000000000, 1.000000000000000000 ) ) ;
#55 = CARTESIAN_POINT ( 'NONE',  ( -3.000000000000000000, 1.836970198721029589E-15, -15.00000000000000000 ) ) ;
#56 = APPLICATION_PROTOCOL_DEFINITION ( 'international standard', 'config_control_design', 1994, #29 ) ;
#57 = ADVANCED_FACE ( 'NONE', ( #101 ), #174, .T. ) ;
#58 = ORIENTED_EDGE ( 'NONE', *, *, #127, .T. ) ;
#59 = APPLICATION_PROTOCOL_DEFINITION ( 'international standard', 'config_control_design', 1994, #37 ) ;
#60 = DATE_AND_TIME ( #48, #78 ) ;
#61 = PERSON ( 'UNSPECIFIED', 'UNSPECIFIED', 'UNSPECIFIED', ('UNSPECIFIED'), ('UNSPECIFIED'), ('UNSPECIFIED') ) ;
#62 = CALENDAR_DATE ( 2020, 24, 12 ) ;
#63 = DIRECTION ( 'NONE',  ( 0.000000000000000000, 0.000000000000000000, 1.000000000000000000 ) ) ;
#64 = CALENDAR_DATE ( 2020, 24, 12 ) ;
#65 = PRODUCT_RELATED_PRODUCT_CATEGORY ( 'detail', '', ( #2 ) ) ;
#66 = PERSON_AND_ORGANIZATION ( #61, #50 ) ;
#67 = DATE_AND_TIME ( #62, #87 ) ;
#68 = DIRECTION ( 'NONE',  ( 1.000000000000000000, 0.000000000000000000, 0.000000000000000000 ) ) ;
#69 = DIRECTION ( 'NONE',  ( -0.000000000000000000, 0.000000000000000000, 1.000000000000000000 ) ) ;
#70 = CC_DESIGN_PERSON_AND_ORGANIZATION_ASSIGNMENT ( #125, #8, ( #97 ) ) ;
#71 = ORIENTED_EDGE ( 'NONE', *, *, #91, .F. ) ;
#72 = ORIENTED_EDGE ( 'NONE', *, *, #136, .T. ) ;
#73 = ORIENTED_EDGE ( 'NONE', *, *, #141, .F. ) ;
#74 = DATE_AND_TIME ( #169, #22 ) ;
#75 = DIRECTION ( 'NONE',  ( -1.000000000000000000, -0.000000000000000000, -0.000000000000000000 ) ) ;
#76 = CALENDAR_DATE ( 2020, 24, 12 ) ;
#77 = DIRECTION ( 'NONE',  ( 0.000000000000000000, 0.000000000000000000, 1.000000000000000000 ) ) ;
#78 = LOCAL_TIME ( 9, 51, 2.000000000000000000, #79 ) ;
#79 = COORDINATED_UNIVERSAL_TIME_OFFSET ( 8, 0, .AHEAD. ) ;
#80 = APPROVAL_DATE_TIME ( #60, #100 ) ;
#81 = CLOSED_SHELL ( 'NONE', ( #57, #103, #160, #96 ) ) ;
#82 = CC_DESIGN_APPROVAL ( #28, ( #144 ) ) ;
#83 = DIRECTION ( 'NONE',  ( -1.000000000000000000, -0.000000000000000000, -0.000000000000000000 ) ) ;
#84 = PLANE ( 'NONE',  #18 ) ;
#85 = MECHANICAL_CONTEXT ( 'NONE', #29, 'mechanical' ) ;
#86 = AXIS2_PLACEMENT_3D ( 'NONE', #146, #115, #132 ) ;
#87 = LOCAL_TIME ( 9, 51, 2.000000000000000000, #140 ) ;
#88 = ORIENTED_EDGE ( 'NONE', *, *, #91, .T. ) ;
#89 = VERTEX_POINT ( 'NONE', #55 ) ;
#90 = VERTEX_POINT ( 'NONE', #19 ) ;
#91 = EDGE_CURVE ( 'NONE', #138, #1, #31, .T. ) ;
#92 = ORIENTED_EDGE ( 'NONE', *, *, #127, .F. ) ;
#93 = DIRECTION ( 'NONE',  ( -1.000000000000000000, -0.000000000000000000, -0.000000000000000000 ) ) ;
#94 = CIRCLE ( 'NONE', #98, 15.00000000000000000 ) ;
#95 = DATE_AND_TIME ( #64, #17 ) ;
#96 = ADVANCED_FACE ( 'NONE', ( #12 ), #42, .F. ) ;
#97 = PRODUCT_DEFINITION_FORMATION_WITH_SPECIFIED_SOURCE ( 'ANY', '', #2, .NOT_KNOWN. ) ;
#98 = AXIS2_PLACEMENT_3D ( 'NONE', #116, #83, #118 ) ;
#99 = APPROVAL_PERSON_ORGANIZATION ( #129, #28, #52 ) ;
#100 = APPROVAL ( #128, 'UNSPECIFIED' ) ;
#101 = FACE_OUTER_BOUND ( 'NONE', #104, .T. ) ;
#102 = DIRECTION ( 'NONE',  ( 1.000000000000000000, 0.000000000000000000, 0.000000000000000000 ) ) ;
#103 = ADVANCED_FACE ( 'NONE', ( #43 ), #84, .F. ) ;
#104 = EDGE_LOOP ( 'NONE', ( #23, #162, #34, #71 ) ) ;
#105 = PERSON_AND_ORGANIZATION ( #61, #50 ) ;
#106 = ORIENTED_EDGE ( 'NONE', *, *, #53, .F. ) ;
#107 = CARTESIAN_POINT ( 'NONE',  ( -1.614212418857619014, 1.836970198721029589E-15, -15.00000000000000000 ) ) ;
#108 = DATE_AND_TIME ( #76, #131 ) ;
#109 = CARTESIAN_POINT ( 'NONE',  ( -3.000000000000000000, 0.000000000000000000, 0.000000000000000000 ) ) ;
#110 = PERSON_AND_ORGANIZATION ( #61, #50 ) ;
#111 = COORDINATED_UNIVERSAL_TIME_OFFSET ( 8, 0, .AHEAD. ) ;
#112 = CC_DESIGN_DATE_AND_TIME_ASSIGNMENT ( #95, #157, ( #15 ) ) ;
#113 = CC_DESIGN_APPROVAL ( #114, ( #97 ) ) ;
#114 = APPROVAL ( #36, 'UNSPECIFIED' ) ;
#115 = DIRECTION ( 'NONE',  ( -1.000000000000000000, -0.000000000000000000, -0.000000000000000000 ) ) ;
#116 = CARTESIAN_POINT ( 'NONE',  ( 3.000000000000000000, 0.000000000000000000, 0.000000000000000000 ) ) ;
#117 = AXIS2_PLACEMENT_3D ( 'NONE', #35, #133, #54 ) ;
#118 = DIRECTION ( 'NONE',  ( 0.000000000000000000, 0.000000000000000000, 1.000000000000000000 ) ) ;
#119 = CC_DESIGN_PERSON_AND_ORGANIZATION_ASSIGNMENT ( #66, #49, ( #2 ) ) ;
#120 = CIRCLE ( 'NONE', #145, 15.00000000000000000 ) ;
#121 = ORIENTED_EDGE ( 'NONE', *, *, #136, .F. ) ;
#122 = EDGE_LOOP ( 'NONE', ( #106, #92 ) ) ;
#123 = CYLINDRICAL_SURFACE ( 'NONE', #124, 15.00000000000000000 ) ;
#124 = AXIS2_PLACEMENT_3D ( 'NONE', #14, #93, #63 ) ;
#125 = PERSON_AND_ORGANIZATION ( #61, #50 ) ;
#126 =( NAMED_UNIT ( * ) PLANE_ANGLE_UNIT ( ) SI_UNIT ( $, .RADIAN. ) );
#127 = EDGE_CURVE ( 'NONE', #90, #138, #120, .T. ) ;
#128 = APPROVAL_STATUS ( 'not_yet_approved' ) ;
#129 = PERSON_AND_ORGANIZATION ( #61, #50 ) ;
#130 = PERSON_AND_ORGANIZATION ( #61, #50 ) ;
#131 = LOCAL_TIME ( 9, 51, 2.000000000000000000, #13 ) ;
#132 = DIRECTION ( 'NONE',  ( 0.000000000000000000, 0.000000000000000000, 1.000000000000000000 ) ) ;
#133 = DIRECTION ( 'NONE',  ( -1.000000000000000000, -0.000000000000000000, -0.000000000000000000 ) ) ;
#134 = CIRCLE ( 'NONE', #117, 15.00000000000000000 ) ;
#135 = DIRECTION ( 'NONE',  ( 0.000000000000000000, 0.000000000000000000, 1.000000000000000000 ) ) ;
#136 = EDGE_CURVE ( 'NONE', #89, #1, #51, .T. ) ;
#137 = CC_DESIGN_APPROVAL ( #100, ( #15 ) ) ;
#138 = VERTEX_POINT ( 'NONE', #38 ) ;
#139 = APPROVAL_DATE_TIME ( #74, #28 ) ;
#140 = COORDINATED_UNIVERSAL_TIME_OFFSET ( 8, 0, .AHEAD. ) ;
#141 = EDGE_CURVE ( 'NONE', #90, #89, #26, .T. ) ;
#142 = DIRECTION ( 'NONE',  ( -1.000000000000000000, -0.000000000000000000, -0.000000000000000000 ) ) ;
#143 = COORDINATED_UNIVERSAL_TIME_OFFSET ( 8, 0, .AHEAD. ) ;
#144 = PRODUCT_DEFINITION ( 'UNKNOWN', '', #97, #161 ) ;
#145 = AXIS2_PLACEMENT_3D ( 'NONE', #5, #75, #77 ) ;
#146 = CARTESIAN_POINT ( 'NONE',  ( -1.614212418857619014, 0.000000000000000000, 0.000000000000000000 ) ) ;
#147 = ADVANCED_BREP_SHAPE_REPRESENTATION ( 'QB-CTZQWP-25.4-1550-M', ( #41, #171 ), #175 ) ;
#148 = CARTESIAN_POINT ( 'NONE',  ( 3.000000000000000888, 12.69999999999999929, 0.000000000000000000 ) ) ;
#149 = CC_DESIGN_PERSON_AND_ORGANIZATION_ASSIGNMENT ( #39, #155, ( #15 ) ) ;
#150 = APPROVAL_PERSON_ORGANIZATION ( #130, #100, #168 ) ;
#151 = UNCERTAINTY_MEASURE_WITH_UNIT (LENGTH_MEASURE( 1.000000000000000082E-05 ), #166, 'distance_accuracy_value', 'NONE');
#152 = EDGE_LOOP ( 'NONE', ( #73, #58, #88, #121 ) ) ;
#153 = PRODUCT_DEFINITION_SHAPE ( 'NONE', 'NONE',  #144 ) ;
#154 = APPROVAL_ROLE ( '' ) ;
#155 = PERSON_AND_ORGANIZATION_ROLE ( 'classification_officer' ) ;
#156 = DIRECTION ( 'NONE',  ( 0.000000000000000000, 0.000000000000000000, 1.000000000000000000 ) ) ;
#157 = DATE_TIME_ROLE ( 'classification_date' ) ;
#158 = CARTESIAN_POINT ( 'NONE',  ( -1.614212418857619014, 0.000000000000000000, 15.00000000000000000 ) ) ;
#159 = CC_DESIGN_SECURITY_CLASSIFICATION ( #15, ( #97 ) ) ;
#160 = ADVANCED_FACE ( 'NONE', ( #167 ), #123, .T. ) ;
#161 = DESIGN_CONTEXT ( 'detailed design', #37, 'design' ) ;
#162 = ORIENTED_EDGE ( 'NONE', *, *, #141, .T. ) ;
#163 = PERSON_AND_ORGANIZATION_ROLE ( 'creator' ) ;
#164 = CARTESIAN_POINT ( 'NONE',  ( -3.000000000000000000, 0.000000000000000000, 15.00000000000000000 ) ) ;
#165 = VECTOR ( 'NONE', #16, 1000.000000000000000 ) ;
#166 =( LENGTH_UNIT ( ) NAMED_UNIT ( * ) SI_UNIT ( .MILLI., .METRE. ) );
#167 = FACE_OUTER_BOUND ( 'NONE', #152, .T. ) ;
#168 = APPROVAL_ROLE ( '' ) ;
#169 = CALENDAR_DATE ( 2020, 24, 12 ) ;
#170 = PERSON_AND_ORGANIZATION_ROLE ( 'design_supplier' ) ;
#171 = AXIS2_PLACEMENT_3D ( 'NONE', #44, #135, #102 ) ;
#172 = DIRECTION ( 'NONE',  ( -1.000000000000000000, -0.000000000000000000, -0.000000000000000000 ) ) ;
#173 = CC_DESIGN_PERSON_AND_ORGANIZATION_ASSIGNMENT ( #105, #163, ( #144 ) ) ;
#174 = CYLINDRICAL_SURFACE ( 'NONE', #86, 15.00000000000000000 ) ;
#175 =( GEOMETRIC_REPRESENTATION_CONTEXT ( 3 ) GLOBAL_UNCERTAINTY_ASSIGNED_CONTEXT ( ( #151 ) ) GLOBAL_UNIT_ASSIGNED_CONTEXT ( ( #166, #126, #24 ) ) REPRESENTATION_CONTEXT ( 'NONE', 'WORKASPACE' ) );
ENDSEC;
END-ISO-10303-21;
